  0
SECTION
  2
HEADER
  9
$ACADVER
  1
AC1009
  9
$INSBASE
 10
0.0
 20
0.0
 30
0.0
  9
$EXTMIN
 10
0.0
 20
0.0
 30
0.0
  9
$EXTMAX
 10
0.0
 20
0.0
 30
0.0
  0
ENDSEC
  0
SECTION
  2
TABLES
  0
TABLE
  2
VPORT
 70
0
  0
ENDTAB
  0
TABLE
  2
LTYPE
 70
1
  0
LTYPE
  2
CONTINUOUS
 70
0
  3
Solid line
 72
65
 73
0
 40
0.0
  0
ENDTAB
  0
TABLE
  2
LAYER
 70
1
  0
LAYER
  2
0
 70
64
 62
7
  6
continuous
  0
ENDTAB
  0
TABLE
  2
STYLE
 70
1
  0
STYLE
  2
STANDARD
 70
0
 40
0
 41
1.0
 50
0.0
 71
0
 42
1
 3
ARIAL.TTF
 4

  0
ENDTAB
  0
TABLE
  2
VIEW
 70
0
  0
ENDTAB
  0
ENDSEC
  0
SECTION
  2
BLOCKS
  0
BLOCK
  8
0
  2
POCKET015
 70
0
 10
0.0
 20
0.0
 30
0.0
  3
POCKET015
  0
LINE
  8
0
 62
0
 10
0.0
 20
75.0
 30
0.0
 11
196.0
 21
75.0
 31
0.0
  0
LINE
  8
0
 62
0
 10
0.0
 20
0.0
 30
0.0
 11
0.0
 21
75.0
 31
0.0
  0
LINE
  8
0
 62
0
 10
196.0
 20
75.0
 30
0.0
 11
196.0
 21
0.0
 31
0.0
  0
LINE
  8
0
 62
0
 10
196.0
 20
0.0
 30
0.0
 11
0.0
 21
0.0
 31
0.0
  0
CIRCLE
  8
0
 62
0
 10
166.25
 20
44.5
 30
0.0
 40
23.0
  0
CIRCLE
  8
0
 62
0
 10
189.25
 20
68.0
 30
0.0
 40
1.5
  0
LINE
  8
0
 62
0
 10
74.5
 20
21.0
 30
0.0
 11
134.5
 21
21.0
 31
0.0
  0
LINE
  8
0
 62
0
 10
74.5
 20
67.0
 30
0.0
 11
74.5
 21
21.0
 31
0.0
  0
LINE
  8
0
 62
0
 10
134.5
 20
21.0
 30
0.0
 11
134.5
 21
67.0
 31
0.0
  0
LINE
  8
0
 62
0
 10
134.5
 20
67.0
 30
0.0
 11
74.5
 21
67.0
 31
0.0
  0
LINE
  8
0
 62
0
 10
159.5
 20
9.0
 30
0.0
 11
152.5
 21
9.0
 31
0.0
  0
ARC
  8
0
 62
0
 10
152.5
 20
10.5
 30
0.0
 40
1.5
 50
-180.0
 51
-90.0
  0
LINE
  8
0
 62
0
 10
151.0
 20
10.5
 30
0.0
 11
151.0
 21
14.5
 31
0.0
  0
ARC
  8
0
 62
0
 10
152.5
 20
14.5
 30
0.0
 40
1.5
 50
90.0
 51
-180.0
  0
LINE
  8
0
 62
0
 10
152.5
 20
16.0
 30
0.0
 11
159.5
 21
16.0
 31
0.0
  0
ARC
  8
0
 62
0
 10
159.5
 20
14.5
 30
0.0
 40
1.5
 50
-0.0
 51
90.0
  0
LINE
  8
0
 62
0
 10
161.0
 20
14.5
 30
0.0
 11
161.0
 21
10.5
 31
0.0
  0
ARC
  8
0
 62
0
 10
159.5
 20
10.5
 30
0.0
 40
1.5
 50
-90.0
 51
0.0
  0
CIRCLE
  8
0
 62
0
 10
189.25
 20
7.0
 30
0.0
 40
1.5
  0
CIRCLE
  8
0
 62
0
 10
6.75
 20
7.0
 30
0.0
 40
1.5
  0
CIRCLE
  8
0
 62
0
 10
6.75
 20
68.0
 30
0.0
 40
1.5
  0
ENDBLK
  0
BLOCK
  8
0
  2
POCKET010
 70
0
 10
0.0
 20
0.0
 30
0.0
  3
POCKET010
  0
LINE
  8
0
 62
0
 10
0.0
 20
75.0
 30
0.0
 11
196.0
 21
75.0
 31
0.0
  0
LINE
  8
0
 62
0
 10
0.0
 20
0.0
 30
0.0
 11
0.0
 21
75.0
 31
0.0
  0
LINE
  8
0
 62
0
 10
196.0
 20
75.0
 30
0.0
 11
196.0
 21
0.0
 31
0.0
  0
LINE
  8
0
 62
0
 10
196.0
 20
0.0
 30
0.0
 11
0.0
 21
0.0
 31
0.0
  0
CIRCLE
  8
0
 62
0
 10
166.25
 20
44.5
 30
0.0
 40
23.0
  0
CIRCLE
  8
0
 62
0
 10
189.25
 20
68.0
 30
0.0
 40
1.5
  0
LINE
  8
0
 62
0
 10
74.5
 20
21.0
 30
0.0
 11
134.5
 21
21.0
 31
0.0
  0
LINE
  8
0
 62
0
 10
74.5
 20
67.0
 30
0.0
 11
74.5
 21
21.0
 31
0.0
  0
LINE
  8
0
 62
0
 10
134.5
 20
21.0
 30
0.0
 11
134.5
 21
67.0
 31
0.0
  0
LINE
  8
0
 62
0
 10
134.5
 20
67.0
 30
0.0
 11
74.5
 21
67.0
 31
0.0
  0
CIRCLE
  8
0
 62
0
 10
189.25
 20
7.0
 30
0.0
 40
1.5
  0
CIRCLE
  8
0
 62
0
 10
6.75
 20
7.0
 30
0.0
 40
1.5
  0
LINE
  8
0
 62
0
 10
41.5
 20
16.0
 30
0.0
 11
48.5
 21
16.0
 31
0.0
  0
ARC
  8
0
 62
0
 10
48.5
 20
14.5
 30
0.0
 40
1.5
 50
0.0
 51
90.0
  0
LINE
  8
0
 62
0
 10
50.0
 20
14.5
 30
0.0
 11
50.0
 21
10.5
 31
0.0
  0
ARC
  8
0
 62
0
 10
48.5
 20
10.5
 30
0.0
 40
1.5
 50
-90.0
 51
0.0
  0
LINE
  8
0
 62
0
 10
48.5
 20
9.0
 30
0.0
 11
41.5
 21
9.0
 31
0.0
  0
ARC
  8
0
 62
0
 10
41.5
 20
10.5
 30
0.0
 40
1.5
 50
-180.0
 51
-90.0
  0
LINE
  8
0
 62
0
 10
40.0
 20
10.5
 30
0.0
 11
40.0
 21
14.5
 31
0.0
  0
ARC
  8
0
 62
0
 10
41.5
 20
14.5
 30
0.0
 40
1.5
 50
90.0
 51
-180.0
  0
CIRCLE
  8
0
 62
0
 10
6.75
 20
68.0
 30
0.0
 40
1.5
  0
ENDBLK
  0
BLOCK
  8
0
  2
POCKET011
 70
0
 10
0.0
 20
0.0
 30
0.0
  3
POCKET011
  0
LINE
  8
0
 62
0
 10
0.0
 20
75.0
 30
0.0
 11
196.0
 21
75.0
 31
0.0
  0
LINE
  8
0
 62
0
 10
0.0
 20
0.0
 30
0.0
 11
0.0
 21
75.0
 31
0.0
  0
LINE
  8
0
 62
0
 10
196.0
 20
75.0
 30
0.0
 11
196.0
 21
0.0
 31
0.0
  0
LINE
  8
0
 62
0
 10
196.0
 20
0.0
 30
0.0
 11
0.0
 21
0.0
 31
0.0
  0
CIRCLE
  8
0
 62
0
 10
166.25
 20
44.5
 30
0.0
 40
23.0
  0
CIRCLE
  8
0
 62
0
 10
189.25
 20
68.0
 30
0.0
 40
1.5
  0
LINE
  8
0
 62
0
 10
74.5
 20
21.0
 30
0.0
 11
134.5
 21
21.0
 31
0.0
  0
LINE
  8
0
 62
0
 10
74.5
 20
67.0
 30
0.0
 11
74.5
 21
21.0
 31
0.0
  0
LINE
  8
0
 62
0
 10
134.5
 20
21.0
 30
0.0
 11
134.5
 21
67.0
 31
0.0
  0
LINE
  8
0
 62
0
 10
134.5
 20
67.0
 30
0.0
 11
74.5
 21
67.0
 31
0.0
  0
CIRCLE
  8
0
 62
0
 10
189.25
 20
7.0
 30
0.0
 40
1.5
  0
CIRCLE
  8
0
 62
0
 10
6.75
 20
7.0
 30
0.0
 40
1.5
  0
LINE
  8
0
 62
0
 10
26.5
 20
16.0
 30
0.0
 11
33.5
 21
16.0
 31
0.0
  0
ARC
  8
0
 62
0
 10
33.5
 20
14.5
 30
0.0
 40
1.5
 50
0.0
 51
90.0
  0
LINE
  8
0
 62
0
 10
35.0
 20
14.5
 30
0.0
 11
35.0
 21
10.5
 31
0.0
  0
ARC
  8
0
 62
0
 10
33.5
 20
10.5
 30
0.0
 40
1.5
 50
-90.0
 51
0.0
  0
LINE
  8
0
 62
0
 10
33.5
 20
9.0
 30
0.0
 11
26.5
 21
9.0
 31
0.0
  0
ARC
  8
0
 62
0
 10
26.5
 20
10.5
 30
0.0
 40
1.5
 50
-180.0
 51
-90.0
  0
LINE
  8
0
 62
0
 10
25.0
 20
10.5
 30
0.0
 11
25.0
 21
14.5
 31
0.0
  0
ARC
  8
0
 62
0
 10
26.5
 20
14.5
 30
0.0
 40
1.5
 50
90.0
 51
-180.0
  0
CIRCLE
  8
0
 62
0
 10
6.75
 20
68.0
 30
0.0
 40
1.5
  0
ENDBLK
  0
BLOCK
  8
0
  2
POCKET012
 70
0
 10
0.0
 20
0.0
 30
0.0
  3
POCKET012
  0
LINE
  8
0
 62
0
 10
0.0
 20
75.0
 30
0.0
 11
196.0
 21
75.0
 31
0.0
  0
LINE
  8
0
 62
0
 10
0.0
 20
0.0
 30
0.0
 11
0.0
 21
75.0
 31
0.0
  0
LINE
  8
0
 62
0
 10
196.0
 20
75.0
 30
0.0
 11
196.0
 21
0.0
 31
0.0
  0
LINE
  8
0
 62
0
 10
196.0
 20
0.0
 30
0.0
 11
0.0
 21
0.0
 31
0.0
  0
CIRCLE
  8
0
 62
0
 10
166.25
 20
44.5
 30
0.0
 40
23.0
  0
CIRCLE
  8
0
 62
0
 10
189.25
 20
68.0
 30
0.0
 40
1.5
  0
LINE
  8
0
 62
0
 10
74.5
 20
21.0
 30
0.0
 11
134.5
 21
21.0
 31
0.0
  0
LINE
  8
0
 62
0
 10
74.5
 20
67.0
 30
0.0
 11
74.5
 21
21.0
 31
0.0
  0
LINE
  8
0
 62
0
 10
134.5
 20
21.0
 30
0.0
 11
134.5
 21
67.0
 31
0.0
  0
LINE
  8
0
 62
0
 10
134.5
 20
67.0
 30
0.0
 11
74.5
 21
67.0
 31
0.0
  0
CIRCLE
  8
0
 62
0
 10
189.25
 20
7.0
 30
0.0
 40
1.5
  0
CIRCLE
  8
0
 62
0
 10
6.75
 20
7.0
 30
0.0
 40
1.5
  0
LINE
  8
0
 62
0
 10
12.0
 20
16.0
 30
0.0
 11
19.0
 21
16.0
 31
0.0
  0
ARC
  8
0
 62
0
 10
19.0
 20
14.5
 30
0.0
 40
1.5
 50
-0.0
 51
90.0
  0
LINE
  8
0
 62
0
 10
20.5
 20
14.5
 30
0.0
 11
20.5
 21
10.5
 31
0.0
  0
ARC
  8
0
 62
0
 10
19.0
 20
10.5
 30
0.0
 40
1.5
 50
-90.0
 51
0.0
  0
LINE
  8
0
 62
0
 10
19.0
 20
9.0
 30
0.0
 11
12.0
 21
9.0
 31
0.0
  0
ARC
  8
0
 62
0
 10
12.0
 20
10.5
 30
0.0
 40
1.5
 50
-180.0
 51
-90.0
  0
LINE
  8
0
 62
0
 10
10.5
 20
10.5
 30
0.0
 11
10.5
 21
14.5
 31
0.0
  0
ARC
  8
0
 62
0
 10
12.0
 20
14.5
 30
0.0
 40
1.5
 50
90.0
 51
-180.0
  0
CIRCLE
  8
0
 62
0
 10
6.75
 20
68.0
 30
0.0
 40
1.5
  0
ENDBLK
  0
BLOCK
  8
0
  2
POCKET013
 70
0
 10
0.0
 20
0.0
 30
0.0
  3
POCKET013
  0
LINE
  8
0
 62
0
 10
0.0
 20
75.0
 30
0.0
 11
196.0
 21
75.0
 31
0.0
  0
LINE
  8
0
 62
0
 10
0.0
 20
0.0
 30
0.0
 11
0.0
 21
75.0
 31
0.0
  0
LINE
  8
0
 62
0
 10
196.0
 20
75.0
 30
0.0
 11
196.0
 21
0.0
 31
0.0
  0
LINE
  8
0
 62
0
 10
196.0
 20
0.0
 30
0.0
 11
0.0
 21
0.0
 31
0.0
  0
CIRCLE
  8
0
 62
0
 10
166.25
 20
44.5
 30
0.0
 40
23.0
  0
CIRCLE
  8
0
 62
0
 10
189.25
 20
68.0
 30
0.0
 40
1.5
  0
LINE
  8
0
 62
0
 10
74.5
 20
21.0
 30
0.0
 11
134.5
 21
21.0
 31
0.0
  0
LINE
  8
0
 62
0
 10
74.5
 20
67.0
 30
0.0
 11
74.5
 21
21.0
 31
0.0
  0
LINE
  8
0
 62
0
 10
134.5
 20
21.0
 30
0.0
 11
134.5
 21
67.0
 31
0.0
  0
LINE
  8
0
 62
0
 10
134.5
 20
67.0
 30
0.0
 11
74.5
 21
67.0
 31
0.0
  0
CIRCLE
  8
0
 62
0
 10
189.25
 20
7.0
 30
0.0
 40
1.5
  0
CIRCLE
  8
0
 62
0
 10
6.75
 20
7.0
 30
0.0
 40
1.5
  0
LINE
  8
0
 62
0
 10
41.5
 20
66.0
 30
0.0
 11
48.5
 21
66.0
 31
0.0
  0
ARC
  8
0
 62
0
 10
48.5
 20
64.5
 30
0.0
 40
1.5
 50
-0.0
 51
90.0
  0
LINE
  8
0
 62
0
 10
50.0
 20
64.5
 30
0.0
 11
50.0
 21
60.5
 31
0.0
  0
ARC
  8
0
 62
0
 10
48.5
 20
60.5
 30
0.0
 40
1.5
 50
-90.0
 51
0.0
  0
LINE
  8
0
 62
0
 10
48.5
 20
59.0
 30
0.0
 11
41.5
 21
59.0
 31
0.0
  0
ARC
  8
0
 62
0
 10
41.5
 20
60.5
 30
0.0
 40
1.5
 50
-180.0
 51
-90.0
  0
LINE
  8
0
 62
0
 10
40.0
 20
60.5
 30
0.0
 11
40.0
 21
64.5
 31
0.0
  0
ARC
  8
0
 62
0
 10
41.5
 20
64.5
 30
0.0
 40
1.5
 50
90.0
 51
-180.0
  0
CIRCLE
  8
0
 62
0
 10
6.75
 20
68.0
 30
0.0
 40
1.5
  0
ENDBLK
  0
BLOCK
  8
0
  2
POCKET014
 70
0
 10
0.0
 20
0.0
 30
0.0
  3
POCKET014
  0
LINE
  8
0
 62
0
 10
0.0
 20
75.0
 30
0.0
 11
196.0
 21
75.0
 31
0.0
  0
LINE
  8
0
 62
0
 10
0.0
 20
0.0
 30
0.0
 11
0.0
 21
75.0
 31
0.0
  0
LINE
  8
0
 62
0
 10
196.0
 20
75.0
 30
0.0
 11
196.0
 21
0.0
 31
0.0
  0
LINE
  8
0
 62
0
 10
196.0
 20
0.0
 30
0.0
 11
0.0
 21
0.0
 31
0.0
  0
CIRCLE
  8
0
 62
0
 10
166.25
 20
44.5
 30
0.0
 40
23.0
  0
CIRCLE
  8
0
 62
0
 10
189.25
 20
68.0
 30
0.0
 40
1.5
  0
LINE
  8
0
 62
0
 10
74.5
 20
21.0
 30
0.0
 11
134.5
 21
21.0
 31
0.0
  0
LINE
  8
0
 62
0
 10
74.5
 20
67.0
 30
0.0
 11
74.5
 21
21.0
 31
0.0
  0
LINE
  8
0
 62
0
 10
134.5
 20
21.0
 30
0.0
 11
134.5
 21
67.0
 31
0.0
  0
LINE
  8
0
 62
0
 10
134.5
 20
67.0
 30
0.0
 11
74.5
 21
67.0
 31
0.0
  0
LINE
  8
0
 62
0
 10
181.5
 20
9.0
 30
0.0
 11
174.5
 21
9.0
 31
0.0
  0
ARC
  8
0
 62
0
 10
174.5
 20
10.5
 30
0.0
 40
1.5
 50
-180.0
 51
-90.0
  0
LINE
  8
0
 62
0
 10
173.0
 20
10.5
 30
0.0
 11
173.0
 21
14.5
 31
0.0
  0
ARC
  8
0
 62
0
 10
174.5
 20
14.5
 30
0.0
 40
1.5
 50
90.0
 51
-180.0
  0
LINE
  8
0
 62
0
 10
174.5
 20
16.0
 30
0.0
 11
181.5
 21
16.0
 31
0.0
  0
ARC
  8
0
 62
0
 10
181.5
 20
14.5
 30
0.0
 40
1.5
 50
-0.0
 51
90.0
  0
LINE
  8
0
 62
0
 10
183.0
 20
14.5
 30
0.0
 11
183.0
 21
10.5
 31
0.0
  0
ARC
  8
0
 62
0
 10
181.5
 20
10.5
 30
0.0
 40
1.5
 50
-90.0
 51
0.0
  0
CIRCLE
  8
0
 62
0
 10
189.25
 20
7.0
 30
0.0
 40
1.5
  0
CIRCLE
  8
0
 62
0
 10
6.75
 20
7.0
 30
0.0
 40
1.5
  0
CIRCLE
  8
0
 62
0
 10
6.75
 20
68.0
 30
0.0
 40
1.5
  0
ENDBLK
  0
BLOCK
  8
0
  2
POCKET017
 70
0
 10
0.0
 20
0.0
 30
0.0
  3
POCKET017
  0
LINE
  8
0
 62
0
 10
0.0
 20
75.0
 30
0.0
 11
196.0
 21
75.0
 31
0.0
  0
LINE
  8
0
 62
0
 10
0.0
 20
0.0
 30
0.0
 11
0.0
 21
75.0
 31
0.0
  0
LINE
  8
0
 62
0
 10
196.0
 20
75.0
 30
0.0
 11
196.0
 21
0.0
 31
0.0
  0
LINE
  8
0
 62
0
 10
196.0
 20
0.0
 30
0.0
 11
0.0
 21
0.0
 31
0.0
  0
CIRCLE
  8
0
 62
0
 10
166.25
 20
44.5
 30
0.0
 40
23.0
  0
CIRCLE
  8
0
 62
0
 10
189.25
 20
68.0
 30
0.0
 40
1.5
  0
LINE
  8
0
 62
0
 10
74.5
 20
21.0
 30
0.0
 11
134.5
 21
21.0
 31
0.0
  0
LINE
  8
0
 62
0
 10
74.5
 20
67.0
 30
0.0
 11
74.5
 21
21.0
 31
0.0
  0
LINE
  8
0
 62
0
 10
134.5
 20
21.0
 30
0.0
 11
134.5
 21
67.0
 31
0.0
  0
LINE
  8
0
 62
0
 10
134.5
 20
67.0
 30
0.0
 11
74.5
 21
67.0
 31
0.0
  0
CIRCLE
  8
0
 62
0
 10
189.25
 20
7.0
 30
0.0
 40
1.5
  0
CIRCLE
  8
0
 62
0
 10
6.75
 20
7.0
 30
0.0
 40
1.5
  0
LINE
  8
0
 62
0
 10
108.0
 20
9.0
 30
0.0
 11
101.0
 21
9.0
 31
0.0
  0
ARC
  8
0
 62
0
 10
101.0
 20
10.5
 30
0.0
 40
1.5
 50
-180.0
 51
-90.0
  0
LINE
  8
0
 62
0
 10
99.5
 20
10.5
 30
0.0
 11
99.5
 21
14.5
 31
0.0
  0
ARC
  8
0
 62
0
 10
101.0
 20
14.5
 30
0.0
 40
1.5
 50
90.0
 51
-180.0
  0
LINE
  8
0
 62
0
 10
101.0
 20
16.0
 30
0.0
 11
108.0
 21
16.0
 31
0.0
  0
ARC
  8
0
 62
0
 10
108.0
 20
14.5
 30
0.0
 40
1.5
 50
0.0
 51
90.0
  0
LINE
  8
0
 62
0
 10
109.5
 20
14.5
 30
0.0
 11
109.5
 21
10.5
 31
0.0
  0
ARC
  8
0
 62
0
 10
108.0
 20
10.5
 30
0.0
 40
1.5
 50
-90.0
 51
0.0
  0
CIRCLE
  8
0
 62
0
 10
6.75
 20
68.0
 30
0.0
 40
1.5
  0
ENDBLK
  0
BLOCK
  8
0
  2
POCKET016
 70
0
 10
0.0
 20
0.0
 30
0.0
  3
POCKET016
  0
LINE
  8
0
 62
0
 10
0.0
 20
75.0
 30
0.0
 11
196.0
 21
75.0
 31
0.0
  0
LINE
  8
0
 62
0
 10
0.0
 20
0.0
 30
0.0
 11
0.0
 21
75.0
 31
0.0
  0
LINE
  8
0
 62
0
 10
196.0
 20
75.0
 30
0.0
 11
196.0
 21
0.0
 31
0.0
  0
LINE
  8
0
 62
0
 10
196.0
 20
0.0
 30
0.0
 11
0.0
 21
0.0
 31
0.0
  0
CIRCLE
  8
0
 62
0
 10
166.25
 20
44.5
 30
0.0
 40
23.0
  0
CIRCLE
  8
0
 62
0
 10
189.25
 20
68.0
 30
0.0
 40
1.5
  0
LINE
  8
0
 62
0
 10
74.5
 20
21.0
 30
0.0
 11
134.5
 21
21.0
 31
0.0
  0
LINE
  8
0
 62
0
 10
74.5
 20
67.0
 30
0.0
 11
74.5
 21
21.0
 31
0.0
  0
LINE
  8
0
 62
0
 10
134.5
 20
21.0
 30
0.0
 11
134.5
 21
67.0
 31
0.0
  0
LINE
  8
0
 62
0
 10
134.5
 20
67.0
 30
0.0
 11
74.5
 21
67.0
 31
0.0
  0
CIRCLE
  8
0
 62
0
 10
189.25
 20
7.0
 30
0.0
 40
1.5
  0
CIRCLE
  8
0
 62
0
 10
6.75
 20
7.0
 30
0.0
 40
1.5
  0
LINE
  8
0
 62
0
 10
120.0
 20
9.0
 30
0.0
 11
113.0
 21
9.0
 31
0.0
  0
ARC
  8
0
 62
0
 10
113.0
 20
10.5
 30
0.0
 40
1.5
 50
-180.0
 51
-90.0
  0
LINE
  8
0
 62
0
 10
111.5
 20
10.5
 30
0.0
 11
111.5
 21
14.5
 31
0.0
  0
ARC
  8
0
 62
0
 10
113.0
 20
14.5
 30
0.0
 40
1.5
 50
90.0
 51
-180.0
  0
LINE
  8
0
 62
0
 10
113.0
 20
16.0
 30
0.0
 11
120.0
 21
16.0
 31
0.0
  0
ARC
  8
0
 62
0
 10
120.0
 20
14.5
 30
0.0
 40
1.5
 50
0.0
 51
90.0
  0
LINE
  8
0
 62
0
 10
121.5
 20
14.5
 30
0.0
 11
121.5
 21
10.5
 31
0.0
  0
ARC
  8
0
 62
0
 10
120.0
 20
10.5
 30
0.0
 40
1.5
 50
-90.0
 51
0.0
  0
CIRCLE
  8
0
 62
0
 10
6.75
 20
68.0
 30
0.0
 40
1.5
  0
ENDBLK
  0
BLOCK
  8
0
  2
POCKET021
 70
0
 10
0.0
 20
0.0
 30
0.0
  3
POCKET021
  0
LINE
  8
0
 62
0
 10
0.0
 20
75.0
 30
0.0
 11
196.0
 21
75.0
 31
0.0
  0
LINE
  8
0
 62
0
 10
0.0
 20
0.0
 30
0.0
 11
0.0
 21
75.0
 31
0.0
  0
LINE
  8
0
 62
0
 10
196.0
 20
75.0
 30
0.0
 11
196.0
 21
0.0
 31
0.0
  0
LINE
  8
0
 62
0
 10
196.0
 20
0.0
 30
0.0
 11
0.0
 21
0.0
 31
0.0
  0
CIRCLE
  8
0
 62
0
 10
166.25
 20
44.5
 30
0.0
 40
23.0
  0
CIRCLE
  8
0
 62
0
 10
189.25
 20
68.0
 30
0.0
 40
1.5
  0
LINE
  8
0
 62
0
 10
74.5
 20
21.0
 30
0.0
 11
134.5
 21
21.0
 31
0.0
  0
LINE
  8
0
 62
0
 10
74.5
 20
67.0
 30
0.0
 11
74.5
 21
21.0
 31
0.0
  0
LINE
  8
0
 62
0
 10
134.5
 20
21.0
 30
0.0
 11
134.5
 21
67.0
 31
0.0
  0
LINE
  8
0
 62
0
 10
134.5
 20
67.0
 30
0.0
 11
74.5
 21
67.0
 31
0.0
  0
CIRCLE
  8
0
 62
0
 10
189.25
 20
7.0
 30
0.0
 40
1.5
  0
CIRCLE
  8
0
 62
0
 10
6.75
 20
7.0
 30
0.0
 40
1.5
  0
LINE
  8
0
 62
0
 10
12.0
 20
66.0
 30
0.0
 11
19.0
 21
66.0
 31
0.0
  0
ARC
  8
0
 62
0
 10
19.0
 20
64.5
 30
0.0
 40
1.5
 50
-0.0
 51
90.0
  0
LINE
  8
0
 62
0
 10
20.5
 20
64.5
 30
0.0
 11
20.5
 21
60.5
 31
0.0
  0
ARC
  8
0
 62
0
 10
19.0
 20
60.5
 30
0.0
 40
1.5
 50
-90.0
 51
0.0
  0
LINE
  8
0
 62
0
 10
19.0
 20
59.0
 30
0.0
 11
12.0
 21
59.0
 31
0.0
  0
ARC
  8
0
 62
0
 10
12.0
 20
60.5
 30
0.0
 40
1.5
 50
-180.0
 51
-90.0
  0
LINE
  8
0
 62
0
 10
10.5
 20
60.5
 30
0.0
 11
10.5
 21
64.5
 31
0.0
  0
ARC
  8
0
 62
0
 10
12.0
 20
64.5
 30
0.0
 40
1.5
 50
90.0
 51
-180.0
  0
CIRCLE
  8
0
 62
0
 10
6.75
 20
68.0
 30
0.0
 40
1.5
  0
ENDBLK
  0
BLOCK
  8
0
  2
POCKET020
 70
0
 10
0.0
 20
0.0
 30
0.0
  3
POCKET020
  0
LINE
  8
0
 62
0
 10
0.0
 20
75.0
 30
0.0
 11
196.0
 21
75.0
 31
0.0
  0
LINE
  8
0
 62
0
 10
0.0
 20
0.0
 30
0.0
 11
0.0
 21
75.0
 31
0.0
  0
LINE
  8
0
 62
0
 10
196.0
 20
75.0
 30
0.0
 11
196.0
 21
0.0
 31
0.0
  0
LINE
  8
0
 62
0
 10
196.0
 20
0.0
 30
0.0
 11
0.0
 21
0.0
 31
0.0
  0
CIRCLE
  8
0
 62
0
 10
166.25
 20
44.5
 30
0.0
 40
23.0
  0
CIRCLE
  8
0
 62
0
 10
189.25
 20
68.0
 30
0.0
 40
1.5
  0
LINE
  8
0
 62
0
 10
74.5
 20
21.0
 30
0.0
 11
134.5
 21
21.0
 31
0.0
  0
LINE
  8
0
 62
0
 10
74.5
 20
67.0
 30
0.0
 11
74.5
 21
21.0
 31
0.0
  0
LINE
  8
0
 62
0
 10
134.5
 20
21.0
 30
0.0
 11
134.5
 21
67.0
 31
0.0
  0
LINE
  8
0
 62
0
 10
134.5
 20
67.0
 30
0.0
 11
74.5
 21
67.0
 31
0.0
  0
CIRCLE
  8
0
 62
0
 10
189.25
 20
7.0
 30
0.0
 40
1.5
  0
CIRCLE
  8
0
 62
0
 10
6.75
 20
7.0
 30
0.0
 40
1.5
  0
LINE
  8
0
 62
0
 10
12.0
 20
27.0
 30
0.0
 11
19.0
 21
27.0
 31
0.0
  0
ARC
  8
0
 62
0
 10
19.0
 20
25.5
 30
0.0
 40
1.5
 50
0.0
 51
90.0
  0
LINE
  8
0
 62
0
 10
20.5
 20
25.5
 30
0.0
 11
20.5
 21
21.5
 31
0.0
  0
ARC
  8
0
 62
0
 10
19.0
 20
21.5
 30
0.0
 40
1.5
 50
-90.0
 51
0.0
  0
LINE
  8
0
 62
0
 10
19.0
 20
20.0
 30
0.0
 11
12.0
 21
20.0
 31
0.0
  0
ARC
  8
0
 62
0
 10
12.0
 20
21.5
 30
0.0
 40
1.5
 50
-180.0
 51
-90.0
  0
LINE
  8
0
 62
0
 10
10.5
 20
21.5
 30
0.0
 11
10.5
 21
25.5
 31
0.0
  0
ARC
  8
0
 62
0
 10
12.0
 20
25.5
 30
0.0
 40
1.5
 50
90.0
 51
-180.0
  0
CIRCLE
  8
0
 62
0
 10
6.75
 20
68.0
 30
0.0
 40
1.5
  0
ENDBLK
  0
BLOCK
  8
0
  2
POCKET019
 70
0
 10
0.0
 20
0.0
 30
0.0
  3
POCKET019
  0
LINE
  8
0
 62
0
 10
0.0
 20
75.0
 30
0.0
 11
196.0
 21
75.0
 31
0.0
  0
LINE
  8
0
 62
0
 10
0.0
 20
0.0
 30
0.0
 11
0.0
 21
75.0
 31
0.0
  0
LINE
  8
0
 62
0
 10
196.0
 20
75.0
 30
0.0
 11
196.0
 21
0.0
 31
0.0
  0
LINE
  8
0
 62
0
 10
196.0
 20
0.0
 30
0.0
 11
0.0
 21
0.0
 31
0.0
  0
CIRCLE
  8
0
 62
0
 10
166.25
 20
44.5
 30
0.0
 40
23.0
  0
CIRCLE
  8
0
 62
0
 10
189.25
 20
68.0
 30
0.0
 40
1.5
  0
LINE
  8
0
 62
0
 10
74.5
 20
21.0
 30
0.0
 11
134.5
 21
21.0
 31
0.0
  0
LINE
  8
0
 62
0
 10
74.5
 20
67.0
 30
0.0
 11
74.5
 21
21.0
 31
0.0
  0
LINE
  8
0
 62
0
 10
134.5
 20
21.0
 30
0.0
 11
134.5
 21
67.0
 31
0.0
  0
LINE
  8
0
 62
0
 10
134.5
 20
67.0
 30
0.0
 11
74.5
 21
67.0
 31
0.0
  0
CIRCLE
  8
0
 62
0
 10
189.25
 20
7.0
 30
0.0
 40
1.5
  0
CIRCLE
  8
0
 62
0
 10
6.75
 20
7.0
 30
0.0
 40
1.5
  0
LINE
  8
0
 62
0
 10
34.0
 20
27.0
 30
0.0
 11
41.0
 21
27.0
 31
0.0
  0
ARC
  8
0
 62
0
 10
41.0
 20
25.5
 30
0.0
 40
1.5
 50
0.0
 51
90.0
  0
LINE
  8
0
 62
0
 10
42.5
 20
25.5
 30
0.0
 11
42.5
 21
21.5
 31
0.0
  0
ARC
  8
0
 62
0
 10
41.0
 20
21.5
 30
0.0
 40
1.5
 50
-90.0
 51
0.0
  0
LINE
  8
0
 62
0
 10
41.0
 20
20.0
 30
0.0
 11
34.0
 21
20.0
 31
0.0
  0
ARC
  8
0
 62
0
 10
34.0
 20
21.5
 30
0.0
 40
1.5
 50
-180.0
 51
-90.0
  0
LINE
  8
0
 62
0
 10
32.5
 20
21.5
 30
0.0
 11
32.5
 21
25.5
 31
0.0
  0
ARC
  8
0
 62
0
 10
34.0
 20
25.5
 30
0.0
 40
1.5
 50
90.0
 51
-180.0
  0
CIRCLE
  8
0
 62
0
 10
6.75
 20
68.0
 30
0.0
 40
1.5
  0
ENDBLK
  0
BLOCK
  8
0
  2
POCKET018
 70
0
 10
0.0
 20
0.0
 30
0.0
  3
POCKET018
  0
LINE
  8
0
 62
0
 10
0.0
 20
75.0
 30
0.0
 11
196.0
 21
75.0
 31
0.0
  0
LINE
  8
0
 62
0
 10
0.0
 20
0.0
 30
0.0
 11
0.0
 21
75.0
 31
0.0
  0
LINE
  8
0
 62
0
 10
196.0
 20
75.0
 30
0.0
 11
196.0
 21
0.0
 31
0.0
  0
LINE
  8
0
 62
0
 10
196.0
 20
0.0
 30
0.0
 11
0.0
 21
0.0
 31
0.0
  0
CIRCLE
  8
0
 62
0
 10
166.25
 20
44.5
 30
0.0
 40
23.0
  0
CIRCLE
  8
0
 62
0
 10
189.25
 20
68.0
 30
0.0
 40
1.5
  0
LINE
  8
0
 62
0
 10
74.5
 20
21.0
 30
0.0
 11
134.5
 21
21.0
 31
0.0
  0
LINE
  8
0
 62
0
 10
74.5
 20
67.0
 30
0.0
 11
74.5
 21
21.0
 31
0.0
  0
LINE
  8
0
 62
0
 10
134.5
 20
21.0
 30
0.0
 11
134.5
 21
67.0
 31
0.0
  0
LINE
  8
0
 62
0
 10
134.5
 20
67.0
 30
0.0
 11
74.5
 21
67.0
 31
0.0
  0
CIRCLE
  8
0
 62
0
 10
189.25
 20
7.0
 30
0.0
 40
1.5
  0
CIRCLE
  8
0
 62
0
 10
6.75
 20
7.0
 30
0.0
 40
1.5
  0
LINE
  8
0
 62
0
 10
96.0
 20
9.0
 30
0.0
 11
89.0
 21
9.0
 31
0.0
  0
ARC
  8
0
 62
0
 10
89.0
 20
10.5
 30
0.0
 40
1.5
 50
-180.0
 51
-90.0
  0
LINE
  8
0
 62
0
 10
87.5
 20
10.5
 30
0.0
 11
87.5
 21
14.5
 31
0.0
  0
ARC
  8
0
 62
0
 10
89.0
 20
14.5
 30
0.0
 40
1.5
 50
90.0
 51
-180.0
  0
LINE
  8
0
 62
0
 10
89.0
 20
16.0
 30
0.0
 11
96.0
 21
16.0
 31
0.0
  0
ARC
  8
0
 62
0
 10
96.0
 20
14.5
 30
0.0
 40
1.5
 50
0.0
 51
90.0
  0
LINE
  8
0
 62
0
 10
97.5
 20
14.5
 30
0.0
 11
97.5
 21
10.5
 31
0.0
  0
ARC
  8
0
 62
0
 10
96.0
 20
10.5
 30
0.0
 40
1.5
 50
-90.0
 51
0.0
  0
CIRCLE
  8
0
 62
0
 10
6.75
 20
68.0
 30
0.0
 40
1.5
  0
ENDBLK
  0
BLOCK
  8
0
  2
POCKET009
 70
0
 10
0.0
 20
0.0
 30
0.0
  3
POCKET009
  0
LINE
  8
0
 62
0
 10
0.0
 20
75.0
 30
0.0
 11
196.0
 21
75.0
 31
0.0
  0
LINE
  8
0
 62
0
 10
0.0
 20
0.0
 30
0.0
 11
0.0
 21
75.0
 31
0.0
  0
LINE
  8
0
 62
0
 10
196.0
 20
75.0
 30
0.0
 11
196.0
 21
0.0
 31
0.0
  0
LINE
  8
0
 62
0
 10
196.0
 20
0.0
 30
0.0
 11
0.0
 21
0.0
 31
0.0
  0
CIRCLE
  8
0
 62
0
 10
166.25
 20
44.5
 30
0.0
 40
23.0
  0
CIRCLE
  8
0
 62
0
 10
189.25
 20
68.0
 30
0.0
 40
1.5
  0
LINE
  8
0
 62
0
 10
74.5
 20
21.0
 30
0.0
 11
134.5
 21
21.0
 31
0.0
  0
LINE
  8
0
 62
0
 10
74.5
 20
67.0
 30
0.0
 11
74.5
 21
21.0
 31
0.0
  0
LINE
  8
0
 62
0
 10
134.5
 20
21.0
 30
0.0
 11
134.5
 21
67.0
 31
0.0
  0
LINE
  8
0
 62
0
 10
134.5
 20
67.0
 30
0.0
 11
74.5
 21
67.0
 31
0.0
  0
CIRCLE
  8
0
 62
0
 10
189.25
 20
7.0
 30
0.0
 40
1.5
  0
CIRCLE
  8
0
 62
0
 10
6.75
 20
7.0
 30
0.0
 40
1.5
  0
LINE
  8
0
 62
0
 10
56.0
 20
66.0
 30
0.0
 11
63.0
 21
66.0
 31
0.0
  0
ARC
  8
0
 62
0
 10
63.0
 20
64.5
 30
0.0
 40
1.5
 50
-0.0
 51
90.0
  0
LINE
  8
0
 62
0
 10
64.5
 20
64.5
 30
0.0
 11
64.5
 21
60.5
 31
0.0
  0
ARC
  8
0
 62
0
 10
63.0
 20
60.5
 30
0.0
 40
1.5
 50
-90.0
 51
0.0
  0
LINE
  8
0
 62
0
 10
63.0
 20
59.0
 30
0.0
 11
56.0
 21
59.0
 31
0.0
  0
ARC
  8
0
 62
0
 10
56.0
 20
60.5
 30
0.0
 40
1.5
 50
-180.0
 51
-90.0
  0
LINE
  8
0
 62
0
 10
54.5
 20
60.5
 30
0.0
 11
54.5
 21
64.5
 31
0.0
  0
ARC
  8
0
 62
0
 10
56.0
 20
64.5
 30
0.0
 40
1.5
 50
90.0
 51
-180.0
  0
CIRCLE
  8
0
 62
0
 10
6.75
 20
68.0
 30
0.0
 40
1.5
  0
ENDBLK
  0
BLOCK
  8
0
  2
POCKET007
 70
0
 10
0.0
 20
0.0
 30
0.0
  3
POCKET007
  0
LINE
  8
0
 62
0
 10
0.0
 20
75.0
 30
0.0
 11
196.0
 21
75.0
 31
0.0
  0
LINE
  8
0
 62
0
 10
0.0
 20
0.0
 30
0.0
 11
0.0
 21
75.0
 31
0.0
  0
LINE
  8
0
 62
0
 10
196.0
 20
75.0
 30
0.0
 11
196.0
 21
0.0
 31
0.0
  0
LINE
  8
0
 62
0
 10
196.0
 20
0.0
 30
0.0
 11
0.0
 21
0.0
 31
0.0
  0
CIRCLE
  8
0
 62
0
 10
166.25
 20
44.5
 30
0.0
 40
23.0
  0
CIRCLE
  8
0
 62
0
 10
189.25
 20
68.0
 30
0.0
 40
1.5
  0
LINE
  8
0
 62
0
 10
74.5
 20
21.0
 30
0.0
 11
134.5
 21
21.0
 31
0.0
  0
LINE
  8
0
 62
0
 10
74.5
 20
67.0
 30
0.0
 11
74.5
 21
21.0
 31
0.0
  0
LINE
  8
0
 62
0
 10
134.5
 20
21.0
 30
0.0
 11
134.5
 21
67.0
 31
0.0
  0
LINE
  8
0
 62
0
 10
134.5
 20
67.0
 30
0.0
 11
74.5
 21
67.0
 31
0.0
  0
CIRCLE
  8
0
 62
0
 10
189.25
 20
7.0
 30
0.0
 40
1.5
  0
CIRCLE
  8
0
 62
0
 10
6.75
 20
7.0
 30
0.0
 40
1.5
  0
CIRCLE
  8
0
 62
0
 10
15.5
 20
37.5
 30
0.0
 40
8.0
  0
CIRCLE
  8
0
 62
0
 10
6.75
 20
68.0
 30
0.0
 40
1.5
  0
ENDBLK
  0
BLOCK
  8
0
  2
POCKET008
 70
0
 10
0.0
 20
0.0
 30
0.0
  3
POCKET008
  0
LINE
  8
0
 62
0
 10
0.0
 20
75.0
 30
0.0
 11
196.0
 21
75.0
 31
0.0
  0
LINE
  8
0
 62
0
 10
0.0
 20
0.0
 30
0.0
 11
0.0
 21
75.0
 31
0.0
  0
LINE
  8
0
 62
0
 10
196.0
 20
75.0
 30
0.0
 11
196.0
 21
0.0
 31
0.0
  0
LINE
  8
0
 62
0
 10
196.0
 20
0.0
 30
0.0
 11
0.0
 21
0.0
 31
0.0
  0
CIRCLE
  8
0
 62
0
 10
166.25
 20
44.5
 30
0.0
 40
23.0
  0
CIRCLE
  8
0
 62
0
 10
189.25
 20
68.0
 30
0.0
 40
1.5
  0
LINE
  8
0
 62
0
 10
74.5
 20
21.0
 30
0.0
 11
134.5
 21
21.0
 31
0.0
  0
LINE
  8
0
 62
0
 10
74.5
 20
67.0
 30
0.0
 11
74.5
 21
21.0
 31
0.0
  0
LINE
  8
0
 62
0
 10
134.5
 20
21.0
 30
0.0
 11
134.5
 21
67.0
 31
0.0
  0
LINE
  8
0
 62
0
 10
134.5
 20
67.0
 30
0.0
 11
74.5
 21
67.0
 31
0.0
  0
CIRCLE
  8
0
 62
0
 10
189.25
 20
7.0
 30
0.0
 40
1.5
  0
CIRCLE
  8
0
 62
0
 10
6.75
 20
7.0
 30
0.0
 40
1.5
  0
LINE
  8
0
 62
0
 10
132.0
 20
9.0
 30
0.0
 11
125.0
 21
9.0
 31
0.0
  0
ARC
  8
0
 62
0
 10
125.0
 20
10.5
 30
0.0
 40
1.5
 50
-180.0
 51
-90.0
  0
LINE
  8
0
 62
0
 10
123.5
 20
10.5
 30
0.0
 11
123.5
 21
14.5
 31
0.0
  0
ARC
  8
0
 62
0
 10
125.0
 20
14.5
 30
0.0
 40
1.5
 50
90.0
 51
-180.0
  0
LINE
  8
0
 62
0
 10
125.0
 20
16.0
 30
0.0
 11
132.0
 21
16.0
 31
0.0
  0
ARC
  8
0
 62
0
 10
132.0
 20
14.5
 30
0.0
 40
1.5
 50
-0.0
 51
90.0
  0
LINE
  8
0
 62
0
 10
133.5
 20
14.5
 30
0.0
 11
133.5
 21
10.5
 31
0.0
  0
ARC
  8
0
 62
0
 10
132.0
 20
10.5
 30
0.0
 40
1.5
 50
-90.0
 51
0.0
  0
CIRCLE
  8
0
 62
0
 10
6.75
 20
68.0
 30
0.0
 40
1.5
  0
ENDBLK
  0
BLOCK
  8
0
  2
POCKET003
 70
0
 10
0.0
 20
0.0
 30
0.0
  3
POCKET003
  0
LINE
  8
0
 62
0
 10
0.0
 20
75.0
 30
0.0
 11
196.0
 21
75.0
 31
0.0
  0
LINE
  8
0
 62
0
 10
0.0
 20
0.0
 30
0.0
 11
0.0
 21
75.0
 31
0.0
  0
LINE
  8
0
 62
0
 10
196.0
 20
75.0
 30
0.0
 11
196.0
 21
0.0
 31
0.0
  0
LINE
  8
0
 62
0
 10
196.0
 20
0.0
 30
0.0
 11
0.0
 21
0.0
 31
0.0
  0
CIRCLE
  8
0
 62
0
 10
166.25
 20
44.5
 30
0.0
 40
23.0
  0
CIRCLE
  8
0
 62
0
 10
189.25
 20
68.0
 30
0.0
 40
1.5
  0
LINE
  8
0
 62
0
 10
74.5
 20
21.0
 30
0.0
 11
134.5
 21
21.0
 31
0.0
  0
LINE
  8
0
 62
0
 10
74.5
 20
67.0
 30
0.0
 11
74.5
 21
21.0
 31
0.0
  0
LINE
  8
0
 62
0
 10
134.5
 20
21.0
 30
0.0
 11
134.5
 21
67.0
 31
0.0
  0
LINE
  8
0
 62
0
 10
134.5
 20
67.0
 30
0.0
 11
74.5
 21
67.0
 31
0.0
  0
CIRCLE
  8
0
 62
0
 10
189.25
 20
7.0
 30
0.0
 40
1.5
  0
CIRCLE
  8
0
 62
0
 10
6.75
 20
7.0
 30
0.0
 40
1.5
  0
CIRCLE
  8
0
 62
0
 10
63.0
 20
52.75
 30
0.0
 40
1.5
  0
CIRCLE
  8
0
 62
0
 10
6.75
 20
68.0
 30
0.0
 40
1.5
  0
ENDBLK
  0
BLOCK
  8
0
  2
POCKET002
 70
0
 10
0.0
 20
0.0
 30
0.0
  3
POCKET002
  0
LINE
  8
0
 62
0
 10
0.0
 20
75.0
 30
0.0
 11
196.0
 21
75.0
 31
0.0
  0
LINE
  8
0
 62
0
 10
0.0
 20
0.0
 30
0.0
 11
0.0
 21
75.0
 31
0.0
  0
LINE
  8
0
 62
0
 10
196.0
 20
75.0
 30
0.0
 11
196.0
 21
0.0
 31
0.0
  0
LINE
  8
0
 62
0
 10
196.0
 20
0.0
 30
0.0
 11
0.0
 21
0.0
 31
0.0
  0
CIRCLE
  8
0
 62
0
 10
166.25
 20
44.5
 30
0.0
 40
23.0
  0
CIRCLE
  8
0
 62
0
 10
189.25
 20
68.0
 30
0.0
 40
1.5
  0
LINE
  8
0
 62
0
 10
74.5
 20
21.0
 30
0.0
 11
134.5
 21
21.0
 31
0.0
  0
LINE
  8
0
 62
0
 10
74.5
 20
67.0
 30
0.0
 11
74.5
 21
21.0
 31
0.0
  0
LINE
  8
0
 62
0
 10
134.5
 20
21.0
 30
0.0
 11
134.5
 21
67.0
 31
0.0
  0
LINE
  8
0
 62
0
 10
134.5
 20
67.0
 30
0.0
 11
74.5
 21
67.0
 31
0.0
  0
CIRCLE
  8
0
 62
0
 10
189.25
 20
7.0
 30
0.0
 40
1.5
  0
CIRCLE
  8
0
 62
0
 10
6.75
 20
7.0
 30
0.0
 40
1.5
  0
CIRCLE
  8
0
 62
0
 10
59.5
 20
37.5
 30
0.0
 40
8.0
  0
CIRCLE
  8
0
 62
0
 10
6.75
 20
68.0
 30
0.0
 40
1.5
  0
ENDBLK
  0
BLOCK
  8
0
  2
POCKET005
 70
0
 10
0.0
 20
0.0
 30
0.0
  3
POCKET005
  0
LINE
  8
0
 62
0
 10
0.0
 20
75.0
 30
0.0
 11
196.0
 21
75.0
 31
0.0
  0
LINE
  8
0
 62
0
 10
0.0
 20
0.0
 30
0.0
 11
0.0
 21
75.0
 31
0.0
  0
LINE
  8
0
 62
0
 10
196.0
 20
75.0
 30
0.0
 11
196.0
 21
0.0
 31
0.0
  0
LINE
  8
0
 62
0
 10
196.0
 20
0.0
 30
0.0
 11
0.0
 21
0.0
 31
0.0
  0
CIRCLE
  8
0
 62
0
 10
166.25
 20
44.5
 30
0.0
 40
23.0
  0
CIRCLE
  8
0
 62
0
 10
189.25
 20
68.0
 30
0.0
 40
1.5
  0
LINE
  8
0
 62
0
 10
74.5
 20
21.0
 30
0.0
 11
134.5
 21
21.0
 31
0.0
  0
LINE
  8
0
 62
0
 10
74.5
 20
67.0
 30
0.0
 11
74.5
 21
21.0
 31
0.0
  0
LINE
  8
0
 62
0
 10
134.5
 20
21.0
 30
0.0
 11
134.5
 21
67.0
 31
0.0
  0
LINE
  8
0
 62
0
 10
134.5
 20
67.0
 30
0.0
 11
74.5
 21
67.0
 31
0.0
  0
CIRCLE
  8
0
 62
0
 10
189.25
 20
7.0
 30
0.0
 40
1.5
  0
CIRCLE
  8
0
 62
0
 10
6.75
 20
7.0
 30
0.0
 40
1.5
  0
LINE
  8
0
 62
0
 10
56.0
 20
16.0
 30
0.0
 11
63.0
 21
16.0
 31
0.0
  0
ARC
  8
0
 62
0
 10
63.0
 20
14.5
 30
0.0
 40
1.5
 50
-0.0
 51
90.0
  0
LINE
  8
0
 62
0
 10
64.5
 20
14.5
 30
0.0
 11
64.5
 21
10.5
 31
0.0
  0
ARC
  8
0
 62
0
 10
63.0
 20
10.5
 30
0.0
 40
1.5
 50
-90.0
 51
0.0
  0
LINE
  8
0
 62
0
 10
63.0
 20
9.0
 30
0.0
 11
56.0
 21
9.0
 31
0.0
  0
ARC
  8
0
 62
0
 10
56.0
 20
10.5
 30
0.0
 40
1.5
 50
-180.0
 51
-90.0
  0
LINE
  8
0
 62
0
 10
54.5
 20
10.5
 30
0.0
 11
54.5
 21
14.5
 31
0.0
  0
ARC
  8
0
 62
0
 10
56.0
 20
14.5
 30
0.0
 40
1.5
 50
90.0
 51
-180.0
  0
CIRCLE
  8
0
 62
0
 10
6.75
 20
68.0
 30
0.0
 40
1.5
  0
ENDBLK
  0
BLOCK
  8
0
  2
PAD
 70
0
 10
0.0
 20
0.0
 30
0.0
  3
PAD
  0
LINE
  8
0
 62
0
 10
0.0
 20
75.0
 30
0.0
 11
196.0
 21
75.0
 31
0.0
  0
LINE
  8
0
 62
0
 10
196.0
 20
75.0
 30
0.0
 11
196.0
 21
0.0
 31
0.0
  0
LINE
  8
0
 62
0
 10
196.0
 20
0.0
 30
0.0
 11
0.0
 21
0.0
 31
0.0
  0
LINE
  8
0
 62
0
 10
0.0
 20
0.0
 30
0.0
 11
0.0
 21
75.0
 31
0.0
  0
LINE
  8
0
 62
0
 10
74.5
 20
21.0
 30
0.0
 11
134.5
 21
21.0
 31
0.0
  0
LINE
  8
0
 62
0
 10
134.5
 20
21.0
 30
0.0
 11
134.5
 21
67.0
 31
0.0
  0
LINE
  8
0
 62
0
 10
134.5
 20
67.0
 30
0.0
 11
74.5
 21
67.0
 31
0.0
  0
LINE
  8
0
 62
0
 10
74.5
 20
67.0
 30
0.0
 11
74.5
 21
21.0
 31
0.0
  0
CIRCLE
  8
0
 62
0
 10
166.25
 20
44.5
 30
0.0
 40
23.0
  0
CIRCLE
  8
0
 62
0
 10
189.25
 20
7.0
 30
0.0
 40
1.5
  0
CIRCLE
  8
0
 62
0
 10
189.25
 20
68.0
 30
0.0
 40
1.5
  0
CIRCLE
  8
0
 62
0
 10
6.75
 20
7.0
 30
0.0
 40
1.5
  0
CIRCLE
  8
0
 62
0
 10
6.75
 20
68.0
 30
0.0
 40
1.5
  0
ENDBLK
  0
BLOCK
  8
0
  2
POCKET001
 70
0
 10
0.0
 20
0.0
 30
0.0
  3
POCKET001
  0
LINE
  8
0
 62
0
 10
0.0
 20
75.0
 30
0.0
 11
196.0
 21
75.0
 31
0.0
  0
LINE
  8
0
 62
0
 10
0.0
 20
0.0
 30
0.0
 11
0.0
 21
75.0
 31
0.0
  0
LINE
  8
0
 62
0
 10
196.0
 20
75.0
 30
0.0
 11
196.0
 21
0.0
 31
0.0
  0
LINE
  8
0
 62
0
 10
196.0
 20
0.0
 30
0.0
 11
0.0
 21
0.0
 31
0.0
  0
CIRCLE
  8
0
 62
0
 10
166.25
 20
44.5
 30
0.0
 40
23.0
  0
CIRCLE
  8
0
 62
0
 10
189.25
 20
68.0
 30
0.0
 40
1.5
  0
LINE
  8
0
 62
0
 10
74.5
 20
21.0
 30
0.0
 11
134.5
 21
21.0
 31
0.0
  0
LINE
  8
0
 62
0
 10
74.5
 20
67.0
 30
0.0
 11
74.5
 21
21.0
 31
0.0
  0
LINE
  8
0
 62
0
 10
134.5
 20
21.0
 30
0.0
 11
134.5
 21
67.0
 31
0.0
  0
LINE
  8
0
 62
0
 10
134.5
 20
67.0
 30
0.0
 11
74.5
 21
67.0
 31
0.0
  0
CIRCLE
  8
0
 62
0
 10
189.25
 20
7.0
 30
0.0
 40
1.5
  0
CIRCLE
  8
0
 62
0
 10
6.75
 20
7.0
 30
0.0
 40
1.5
  0
LINE
  8
0
 62
0
 10
77.5
 20
16.0
 30
0.0
 11
84.5
 21
16.0
 31
0.0
  0
ARC
  8
0
 62
0
 10
84.5
 20
14.5
 30
0.0
 40
1.5
 50
0.0
 51
90.0
  0
LINE
  8
0
 62
0
 10
86.0
 20
14.5
 30
0.0
 11
86.0
 21
10.5
 31
0.0
  0
ARC
  8
0
 62
0
 10
84.5
 20
10.5
 30
0.0
 40
1.5
 50
-90.0
 51
0.0
  0
LINE
  8
0
 62
0
 10
84.5
 20
9.0
 30
0.0
 11
77.5
 21
9.0
 31
0.0
  0
ARC
  8
0
 62
0
 10
77.5
 20
10.5
 30
0.0
 40
1.5
 50
-180.0
 51
-90.0
  0
LINE
  8
0
 62
0
 10
76.0
 20
10.5
 30
0.0
 11
76.0
 21
14.5
 31
0.0
  0
ARC
  8
0
 62
0
 10
77.5
 20
14.5
 30
0.0
 40
1.5
 50
90.0
 51
-180.0
  0
CIRCLE
  8
0
 62
0
 10
6.75
 20
68.0
 30
0.0
 40
1.5
  0
ENDBLK
  0
BLOCK
  8
0
  2
POCKET
 70
0
 10
0.0
 20
0.0
 30
0.0
  3
POCKET
  0
LINE
  8
0
 62
0
 10
0.0
 20
75.0
 30
0.0
 11
196.0
 21
75.0
 31
0.0
  0
LINE
  8
0
 62
0
 10
0.0
 20
0.0
 30
0.0
 11
0.0
 21
75.0
 31
0.0
  0
LINE
  8
0
 62
0
 10
196.0
 20
75.0
 30
0.0
 11
196.0
 21
0.0
 31
0.0
  0
LINE
  8
0
 62
0
 10
196.0
 20
0.0
 30
0.0
 11
0.0
 21
0.0
 31
0.0
  0
CIRCLE
  8
0
 62
0
 10
166.25
 20
44.5
 30
0.0
 40
23.0
  0
CIRCLE
  8
0
 62
0
 10
189.25
 20
68.0
 30
0.0
 40
1.5
  0
LINE
  8
0
 62
0
 10
74.5
 20
21.0
 30
0.0
 11
134.5
 21
21.0
 31
0.0
  0
LINE
  8
0
 62
0
 10
74.5
 20
67.0
 30
0.0
 11
74.5
 21
21.0
 31
0.0
  0
LINE
  8
0
 62
0
 10
134.5
 20
21.0
 30
0.0
 11
134.5
 21
67.0
 31
0.0
  0
LINE
  8
0
 62
0
 10
134.5
 20
67.0
 30
0.0
 11
74.5
 21
67.0
 31
0.0
  0
CIRCLE
  8
0
 62
0
 10
189.25
 20
7.0
 30
0.0
 40
1.5
  0
CIRCLE
  8
0
 62
0
 10
6.75
 20
7.0
 30
0.0
 40
1.5
  0
LINE
  8
0
 62
0
 10
56.0
 20
27.0
 30
0.0
 11
63.0
 21
27.0
 31
0.0
  0
ARC
  8
0
 62
0
 10
63.0
 20
25.5
 30
0.0
 40
1.5
 50
-0.0
 51
90.0
  0
LINE
  8
0
 62
0
 10
64.5
 20
25.5
 30
0.0
 11
64.5
 21
21.5
 31
0.0
  0
ARC
  8
0
 62
0
 10
63.0
 20
21.5
 30
0.0
 40
1.5
 50
-90.0
 51
0.0
  0
LINE
  8
0
 62
0
 10
63.0
 20
20.0
 30
0.0
 11
56.0
 21
20.0
 31
0.0
  0
ARC
  8
0
 62
0
 10
56.0
 20
21.5
 30
0.0
 40
1.5
 50
-180.0
 51
-90.0
  0
LINE
  8
0
 62
0
 10
54.5
 20
21.5
 30
0.0
 11
54.5
 21
25.5
 31
0.0
  0
ARC
  8
0
 62
0
 10
56.0
 20
25.5
 30
0.0
 40
1.5
 50
90.0
 51
-180.0
  0
CIRCLE
  8
0
 62
0
 10
6.75
 20
68.0
 30
0.0
 40
1.5
  0
ENDBLK
  0
BLOCK
  8
0
  2
POCKET006
 70
0
 10
0.0
 20
0.0
 30
0.0
  3
POCKET006
  0
LINE
  8
0
 62
0
 10
0.0
 20
75.0
 30
0.0
 11
196.0
 21
75.0
 31
0.0
  0
LINE
  8
0
 62
0
 10
0.0
 20
0.0
 30
0.0
 11
0.0
 21
75.0
 31
0.0
  0
LINE
  8
0
 62
0
 10
196.0
 20
75.0
 30
0.0
 11
196.0
 21
0.0
 31
0.0
  0
LINE
  8
0
 62
0
 10
196.0
 20
0.0
 30
0.0
 11
0.0
 21
0.0
 31
0.0
  0
CIRCLE
  8
0
 62
0
 10
166.25
 20
44.5
 30
0.0
 40
23.0
  0
CIRCLE
  8
0
 62
0
 10
189.25
 20
68.0
 30
0.0
 40
1.5
  0
LINE
  8
0
 62
0
 10
74.5
 20
21.0
 30
0.0
 11
134.5
 21
21.0
 31
0.0
  0
LINE
  8
0
 62
0
 10
74.5
 20
67.0
 30
0.0
 11
74.5
 21
21.0
 31
0.0
  0
LINE
  8
0
 62
0
 10
134.5
 20
21.0
 30
0.0
 11
134.5
 21
67.0
 31
0.0
  0
LINE
  8
0
 62
0
 10
134.5
 20
67.0
 30
0.0
 11
74.5
 21
67.0
 31
0.0
  0
CIRCLE
  8
0
 62
0
 10
189.25
 20
7.0
 30
0.0
 40
1.5
  0
CIRCLE
  8
0
 62
0
 10
6.75
 20
7.0
 30
0.0
 40
1.5
  0
CIRCLE
  8
0
 62
0
 10
37.5
 20
37.5
 30
0.0
 40
8.0
  0
CIRCLE
  8
0
 62
0
 10
6.75
 20
68.0
 30
0.0
 40
1.5
  0
ENDBLK
  0
BLOCK
  8
0
  2
POCKET004
 70
0
 10
0.0
 20
0.0
 30
0.0
  3
POCKET004
  0
LINE
  8
0
 62
0
 10
0.0
 20
75.0
 30
0.0
 11
196.0
 21
75.0
 31
0.0
  0
LINE
  8
0
 62
0
 10
0.0
 20
0.0
 30
0.0
 11
0.0
 21
75.0
 31
0.0
  0
LINE
  8
0
 62
0
 10
196.0
 20
75.0
 30
0.0
 11
196.0
 21
0.0
 31
0.0
  0
LINE
  8
0
 62
0
 10
196.0
 20
0.0
 30
0.0
 11
0.0
 21
0.0
 31
0.0
  0
CIRCLE
  8
0
 62
0
 10
166.25
 20
44.5
 30
0.0
 40
23.0
  0
CIRCLE
  8
0
 62
0
 10
189.25
 20
68.0
 30
0.0
 40
1.5
  0
LINE
  8
0
 62
0
 10
74.5
 20
21.0
 30
0.0
 11
134.5
 21
21.0
 31
0.0
  0
LINE
  8
0
 62
0
 10
74.5
 20
67.0
 30
0.0
 11
74.5
 21
21.0
 31
0.0
  0
LINE
  8
0
 62
0
 10
134.5
 20
21.0
 30
0.0
 11
134.5
 21
67.0
 31
0.0
  0
LINE
  8
0
 62
0
 10
134.5
 20
67.0
 30
0.0
 11
74.5
 21
67.0
 31
0.0
  0
CIRCLE
  8
0
 62
0
 10
189.25
 20
7.0
 30
0.0
 40
1.5
  0
CIRCLE
  8
0
 62
0
 10
6.75
 20
7.0
 30
0.0
 40
1.5
  0
CIRCLE
  8
0
 62
0
 10
56.0
 20
52.75
 30
0.0
 40
1.5
  0
CIRCLE
  8
0
 62
0
 10
6.75
 20
68.0
 30
0.0
 40
1.5
  0
ENDBLK
  0
ENDSEC
  0
SECTION
  2
ENTITIES
  0
INSERT
  2
POCKET015
  8
0
 62
0
 10
0.0
 20
0.0
 30
0.0
  0
INSERT
  2
POCKET010
  8
0
 62
0
 10
0.0
 20
0.0
 30
0.0
  0
INSERT
  2
POCKET011
  8
0
 62
0
 10
0.0
 20
0.0
 30
0.0
  0
INSERT
  2
POCKET012
  8
0
 62
0
 10
0.0
 20
0.0
 30
0.0
  0
INSERT
  2
POCKET013
  8
0
 62
0
 10
0.0
 20
0.0
 30
0.0
  0
INSERT
  2
POCKET014
  8
0
 62
0
 10
0.0
 20
0.0
 30
0.0
  0
INSERT
  2
POCKET017
  8
0
 62
0
 10
0.0
 20
0.0
 30
0.0
  0
INSERT
  2
POCKET016
  8
0
 62
0
 10
0.0
 20
0.0
 30
0.0
  0
INSERT
  2
POCKET021
  8
0
 62
0
 10
0.0
 20
0.0
 30
0.0
  0
INSERT
  2
POCKET020
  8
0
 62
0
 10
0.0
 20
0.0
 30
0.0
  0
INSERT
  2
POCKET019
  8
0
 62
0
 10
0.0
 20
0.0
 30
0.0
  0
INSERT
  2
POCKET018
  8
0
 62
0
 10
0.0
 20
0.0
 30
0.0
  0
INSERT
  2
POCKET009
  8
0
 62
0
 10
0.0
 20
0.0
 30
0.0
  0
INSERT
  2
POCKET007
  8
0
 62
0
 10
0.0
 20
0.0
 30
0.0
  0
INSERT
  2
POCKET008
  8
0
 62
0
 10
0.0
 20
0.0
 30
0.0
  0
INSERT
  2
POCKET003
  8
0
 62
0
 10
0.0
 20
0.0
 30
0.0
  0
INSERT
  2
POCKET002
  8
0
 62
0
 10
0.0
 20
0.0
 30
0.0
  0
INSERT
  2
POCKET005
  8
0
 62
0
 10
0.0
 20
0.0
 30
0.0
  0
INSERT
  2
PAD
  8
0
 62
0
 10
0.0
 20
0.0
 30
0.0
  0
CIRCLE
  8
0
 62
7
 10
56.0
 20
52.75
 30
3.0
 40
1.5
  0
INSERT
  2
POCKET001
  8
0
 62
0
 10
0.0
 20
0.0
 30
0.0
  0
CIRCLE
  8
0
 62
7
 10
63.0
 20
52.75
 30
3.0
 40
1.5
  0
INSERT
  2
POCKET
  8
0
 62
0
 10
0.0
 20
0.0
 30
0.0
  0
INSERT
  2
POCKET006
  8
0
 62
0
 10
0.0
 20
0.0
 30
0.0
  0
INSERT
  2
POCKET004
  8
0
 62
0
 10
0.0
 20
0.0
 30
0.0
  0
ENDSEC
  0
EOF
